  0
SECTION
  2
HEADER
  9
$ACADVER
  1
AC1002
  9
$INSBASE
 10
0.0
 20
0.0
  9
$EXTMIN
 10
0.006301
 20
0.477548
  9
$EXTMAX
 10
12.988951
 20
9.93622
  9
$LIMMIN
 10
0.0
 20
0.0
  9
$LIMMAX
 10
15.0
 20
10.0
  9
$VIEWCTR
 10
9.874789
 20
5.0
  9
$VIEWSIZE
 40
10.0
  9
$SNAPMODE
 70
     1
  9
$SNAPUNIT
 10
0.5
 20
1.0
  9
$SNAPBASE
 10
0.0
 20
0.0
  9
$SNAPANG
 50
0.0
  9
$SNAPSTYLE
 70
     0
  9
$SNAPISOPAIR
 70
     0
  9
$GRIDMODE
 70
     0
  9
$GRIDUNIT
 10
0.25
 20
0.0
  9
$ORTHOMODE
 70
     0
  9
$REGENMODE
 70
     1
  9
$FILLMODE
 70
     1
  9
$QTEXTMODE
 70
     0
  9
$DRAGMODE
 70
     2
  9
$LTSCALE
 40
1.0
  9
$OSMODE
 70
     0
  9
$ATTMODE
 70
     1
  9
$TEXTSIZE
 40
0.364172
  9
$TRACEWID
 40
0.185375
  9
$TEXTSTYLE
  7
STANDARD
  9
$CLAYER
  8
0
  9
$CELTYPE
  6
VONLAYER
  9
$CECOLOR
 62
   256
  9
$DIMSCALE
 40
1.0
  9
$DIMASZ
 40
0.18
  9
$DIMEXO
 40
0.0625
  9
$DIMDLI
 40
0.38
  9
$DIMRND
 40
0.0
  9
$DIMDLE
 40
0.0
  9
$DIMEXE
 40
0.18
  9
$DIMTP
 40
0.0
  9
$DIMTM
 40
0.0
  9
$DIMTXT
 40
0.18
  9
$DIMCEN
 40
0.09
  9
$DIMTSZ
 40
0.0
  9
$DIMTOL
 70
     0
  9
$DIMLIM
 70
     0
  9
$DIMTIH
 70
     1
  9
$DIMTOH
 70
     1
  9
$DIMSE1
 70
     0
  9
$DIMSE2
 70
     0
  9
$DIMTAD
 70
     0
  9
$DIMZIN
 70
     0
  9
$DIMBLK
  1

  9
$LUNITS
 70
     2
  9
$LUPREC
 70
     4
  9
$AXISMODE
 70
     0
  9
$AXISUNIT
 10
0.0
 20
0.0
  9
$SKETCHINC
 40
0.1
  9
$FILLETRAD
 40
0.0
  9
$AUNITS
 70
     1
  9
$AUPREC
 70
     4
  9
$MENU
  1
acad
  9
$ELEVATION
 40
0.0
  9
$THICKNESS
 40
0.0
  9
$VIEWDIR
 10
0.0
 20
0.0
 30
1.0
  9
$LIMCHECK
 70
     0
  9
$BLIPMODE
 70
     1
  9
$CHAMFERA
 40
0.0
  9
$CHAMFERB
 40
0.0
  9
$FASTZOOM
 70
     1
  9
$SKPOLY
 70
     0
  9
$TDCREATE
 40
2446473.5191170636
  9
$TDUPDATE
 40
2448031.3937306052
  9
$TDINDWG
 40
0.0201173611
  9
$TDUSRTIMER
 40
0.0201173611
  9
$USRTIMER
 70
     1
  9
$ANGBASE
 50
0.0
  9
$ANGDIR
 70
     0
  9
$PDMODE
 70
     0
  9
$PDSIZE
 40
0.0
  9
$PLINEWID
 40
0.0
  9
$COORDS
 70
     0
  9
$USERI1
 70
     0
  9
$USERI2
 70
     0
  9
$USERI3
 70
     0
  9
$USERI4
 70
     0
  9
$USERI5
 70
     0
  9
$USERR1
 40
0.0
  9
$USERR2
 40
0.0
  9
$USERR3
 40
0.0
  9
$USERR4
 40
0.0
  9
$USERR5
 40
0.0
  0
ENDSEC
  0
SECTION
  2
TABLES
  0
TABLE
  2
LTYPE
 70
     1
  0
LTYPE
  2
CONTINUOUS
 70
    64
  3
Solid line
 72
    65
 73
     0
 40
0.0
  0
ENDTAB
  0
TABLE
  2
LAYER
 70
     8
  0
LAYER
  2
0
 70
     0
 62
     7
  6
CONTINUOUS
  0
LAYER
  2
CYAN
 70
    64
 62
     4
  6
CONTINUOUS
  0
LAYER
  2
WHITE
 70
    64
 62
     7
  6
CONTINUOUS
  0
LAYER
  2
GREEN
 70
    64
 62
     3
  6
CONTINUOUS
  0
LAYER
  2
BLUE
 70
    64
 62
     5
  6
CONTINUOUS
  0
LAYER
  2
YELLOW
 70
    64
 62
     2
  6
CONTINUOUS
  0
LAYER
  2
RED
 70
    64
 62
     1
  6
CONTINUOUS
  0
LAYER
  2
MAGENTA
 70
    64
 62
     6
  6
CONTINUOUS
  0
ENDTAB
  0
TABLE
  2
STYLE
 70
     1
  0
STYLE
  2
STANDARD
 70
     0
 40
0.0
 41
1.0
 50
0.0
 71
     0
 42
0.2
  3
TXT
  4

  0
ENDTAB
  0
TABLE
  2
VIEW
 70
     0
  0
ENDTAB
  0
ENDSEC
  0
SECTION
  2
BLOCKS
  0
ENDSEC
  0
SECTION
  2
ENTITIES
  0
LINE
  8
YELLOW
 10
4.944203
 20
6.103973
 11
4.807672
 21
5.987473
  0
LINE
  8
CYAN
 10
8.654011
 20
9.930589
 11
8.651896
 21
9.685041
  0
LINE
  8
GREEN
 10
8.192434
 20
7.804206
 11
8.351587
 21
9.53907
  0
LINE
  8
CYAN
 10
9.354378
 20
7.676873
 11
8.962962
 21
7.399415
  0
ARC
  8
RED
 10
1.238209
 20
1.870281
 40
0.918661
 50
239.197663
 51
290.766542
  0
ARC
  8
YELLOW
 10
1.373384
 20
1.798187
 40
0.986378
 50
234.197665
 51
296.466126
  0
ARC
  8
YELLOW
 10
0.113704
 20
-0.086732
 40
1.283367
 50
58.079203
 51
93.063132
  0
LINE
  8
CYAN
 10
6.385493
 20
5.693817
 11
6.56345
 21
5.571451
  0
ARC
  8
BLUE
 10
3.737005
 20
3.334226
 40
0.128019
 50
207.312612
 51
284.238549
  0
ARC
  8
BLUE
 10
3.089545
 20
2.778433
 40
0.435907
 50
8.25605
 51
93.171649
  0
ARC
  8
BLUE
 10
3.241626
 20
3.100571
 40
0.401003
 50
38.604336
 51
97.810709
  0
ARC
  8
BLUE
 10
3.26617
 20
3.064626
 40
0.360636
 50
37.844436
 51
105.974923
  0
LINE
  8
BLUE
 10
3.621608
 20
3.277251
 11
3.554999
 21
3.350772
  0
ARC
  8
BLUE
 10
4.552315
 20
4.6368
 40
0.938469
 50
63.832882
 51
95.651134
  0
LINE
  8
YELLOW
 10
4.661261
 20
5.701816
 11
4.478636
 21
6.39865
  0
LINE
  8
YELLOW
 10
4.452157
 20
6.418621
 11
4.517294
 21
6.471401
  0
LINE
  8
YELLOW
 10
4.425739
 20
6.379043
 11
4.452157
 21
6.418621
  0
LINE
  8
YELLOW
 10
4.423097
 20
6.342291
 11
4.425739
 21
6.379043
  0
LINE
  8
YELLOW
 10
4.600099
 20
5.663807
 11
4.423097
 21
6.342291
  0
LINE
  8
YELLOW
 10
4.367619
 20
6.376216
 11
4.498631
 21
6.481386
  0
LINE
  8
YELLOW
 10
4.338559
 20
6.328156
 11
4.367619
 21
6.376216
  0
LINE
  8
YELLOW
 10
4.327992
 20
6.257481
 11
4.338559
 21
6.328156
  0
LINE
  8
YELLOW
 10
4.49971
 20
5.598785
 11
4.327992
 21
6.257481
  0
LINE
  8
YELLOW
 10
4.351768
 20
6.396005
 11
4.474823
 21
6.495488
  0
LINE
  8
YELLOW
 10
4.277797
 20
6.314021
 11
4.351768
 21
6.396005
  0
LINE
  8
YELLOW
 10
4.259305
 20
6.234865
 11
4.277797
 21
6.314021
  0
LINE
  8
YELLOW
 10
4.428381
 20
5.553553
 11
4.259305
 21
6.234865
  0
LINE
  8
YELLOW
 10
4.349126
 20
6.427102
 11
4.474823
 21
6.495488
  0
LINE
  8
YELLOW
 10
4.26723
 20
6.356427
 11
4.349126
 21
6.427102
  0
LINE
  8
YELLOW
 10
4.195901
 20
6.237692
 11
4.26723
 21
6.356427
  0
LINE
  8
YELLOW
 10
4.359694
 20
5.511147
 11
4.195901
 21
6.237692
  0
ARC
  8
CYAN
 10
6.973082
 20
7.281345
 40
0.349199
 50
63.726408
 51
119.710642
  0
ARC
  8
CYAN
 10
9.189245
 20
4.782975
 40
3.6867
 50
123.885464
 51
138.466518
  0
ARC
  8
CYAN
 10
6.773181
 20
6.852081
 40
0.511028
 50
132.728498
 51
192.005453
  0
ARC
  8
BLUE
 10
2.225121
 20
1.84218
 40
2.083358
 50
46.299273
 51
102.032636
  0
LINE
  8
CYAN
 10
6.317828
 20
6.236902
 11
6.257539
 21
6.239089
  0
LINE
  8
RED
 10
7.186503
 20
5.926772
 11
7.126381
 21
5.884337
  0
LINE
  8
RED
 10
7.479441
 20
6.182753
 11
7.414202
 21
6.136211
  0
LINE
  8
RED
 10
7.505025
 20
6.164957
 11
7.479441
 21
6.182753
  0
LINE
  8
RED
 10
7.446822
 20
6.128242
 11
7.505025
 21
6.164957
  0
LINE
  8
RED
 10
7.485837
 20
6.101989
 11
7.446822
 21
6.128242
  0
LINE
  8
RED
 10
7.538285
 20
6.13758
 11
7.485837
 21
6.101989
  0
LINE
  8
RED
 10
7.561402
 20
6.120811
 11
7.538285
 21
6.13758
  0
LINE
  8
RED
 10
7.498629
 20
6.077349
 11
7.561402
 21
6.120811
  0
ARC
  8
RED
 10
7.091629
 20
5.850073
 40
0.047053
 50
330.416749
 51
114.63629
  0
ARC
  8
RED
 10
7.244411
 20
5.974697
 40
0.061586
 50
349.744007
 51
114.01038
  0
LINE
  8
RED
 10
5.858974
 20
5.043457
 11
5.94355
 21
5.119186
  0
ARC
  8
RED
 10
5.712151
 20
4.916127
 40
0.071059
 50
354.251449
 51
111.474925
  0
ARC
  8
RED
 10
5.829513
 20
4.989286
 40
0.061664
 50
11.291139
 51
113.250171
  0
ARC
  8
RED
 10
5.9004
 20
5.032582
 40
0.096994
 50
355.660904
 51
122.474091
  0
LINE
  8
BLUE
 10
4.908711
 20
4.045209
 11
4.830839
 21
4.185993
  0
LINE
  8
BLUE
 10
4.982202
 20
3.878672
 11
4.908711
 21
4.045209
  0
ARC
  8
BLUE
 10
3.528458
 20
3.161459
 40
1.657372
 50
38.137314
 51
100.17801
  0
LINE
  8
CYAN
 10
6.778803
 20
6.613755
 11
6.64709
 21
6.618302
  0
LINE
  8
CYAN
 10
6.761807
 20
6.691048
 11
6.778803
 21
6.613755
  0
ARC
  8
CYAN
 10
6.951141
 20
5.603931
 40
1.16093
 50
26.543159
 51
64.312557
  0
LINE
  8
CYAN
 10
8.914347
 20
7.73023
 11
8.521765
 21
7.478645
  0
ARC
  8
BLUE
 10
3.242843
 20
3.070483
 40
0.308606
 50
26.76094
 51
109.676167
  0
ARC
  8
BLUE
 10
3.700695
 20
2.890737
 40
0.184784
 50
196.144388
 51
298.823209
  0
ARC
  8
GREEN
 10
6.656262
 20
5.44784
 40
1.351703
 50
20.063987
 51
109.871122
  0
ARC
  8
WHITE
 10
3.433512
 20
2.118946
 40
0.072819
 50
168.050114
 51
283.624758
  0
ARC
  8
BLUE
 10
3.829283
 20
3.084611
 40
0.193836
 50
208.123984
 51
271.832535
  0
ARC
  8
BLUE
 10
3.902716
 20
3.492394
 40
0.407321
 50
210.579889
 51
256.941145
  0
ARC
  8
WHITE
 10
3.350844
 20
2.63913
 40
0.11762
 50
359.366372
 51
105.756334
  0
ARC
  8
BLUE
 10
8.623126
 20
7.36005
 40
0.417765
 50
58.305325
 51
100.176694
  0
ARC
  8
BLUE
 10
8.725016
 20
7.448714
 40
0.420319
 50
43.675834
 51
107.104214
  0
ARC
  8
BLUE
 10
8.849644
 20
7.466492
 40
0.513806
 50
33.977832
 51
112.444685
  0
ARC
  8
BLUE
 10
8.95263
 20
7.501327
 40
0.550195
 50
38.599176
 51
120.256056
  0
ARC
  8
BLUE
 10
8.538349
 20
7.543826
 40
0.163298
 50
43.796083
 51
101.620867
  0
ARC
  8
CYAN
 10
8.494305
 20
7.541343
 40
0.103231
 50
39.479479
 51
131.456147
  0
LINE
  8
CYAN
 10
8.521765
 20
7.478645
 11
8.472561
 21
7.539511
  0
LINE
  8
CYAN
 10
9.410035
 20
7.659777
 11
9.354378
 21
7.676873
  0
ARC
  8
CYAN
 10
9.033065
 20
6.882113
 40
0.857009
 50
68.117884
 51
122.607261
  0
ARC
  8
CYAN
 10
9.478622
 20
7.679162
 40
0.189891
 50
30.023863
 51
119.413555
  0
ARC
  8
WHITE
 10
0.803921
 20
2.209544
 40
0.983839
 50
254.924388
 51
287.994621
  0
ARC
  8
WHITE
 10
0.60057
 20
1.857389
 40
0.600128
 50
219.76545
 51
264.977581
  0
LINE
  8
RED
 10
0.085953
 20
1.240548
 11
0.063738
 21
1.240548
  0
LINE
  8
RED
 10
0.125941
 20
1.240548
 11
0.085953
 21
1.240548
  0
LINE
  8
RED
 10
0.170371
 20
1.235793
 11
0.125941
 21
1.240548
  0
LINE
  8
RED
 10
0.259233
 20
1.22153
 11
0.170371
 21
1.235793
  0
LINE
  8
RED
 10
0.388081
 20
1.193003
 11
0.259233
 21
1.22153
  0
LINE
  8
RED
 10
0.53098
 20
1.164218
 11
0.388081
 21
1.193003
  0
LINE
  8
RED
 10
0.641215
 20
1.133635
 11
0.53098
 21
1.164218
  0
LINE
  8
RED
 10
0.76817
 20
1.083985
 11
0.641215
 21
1.133635
  0
LINE
  8
CYAN
 10
4.944203
 20
6.103973
 11
4.972836
 21
5.98326
  0
LINE
  8
CYAN
 10
5.125821
 20
6.491095
 11
5.178897
 21
6.400888
  0
LINE
  8
CYAN
 10
5.350615
 20
6.457685
 11
5.406814
 21
6.330726
  0
ARC
  8
GREEN
 10
5.557013
 20
5.765068
 40
0.438541
 50
54.836964
 51
117.614901
  0
LINE
  8
YELLOW
 10
4.647264
 20
6.581239
 11
4.628602
 21
6.592651
  0
LINE
  8
CYAN
 10
8.083578
 20
9.620228
 11
8.07634
 21
9.629522
  0
LINE
  8
CYAN
 10
8.62784
 20
9.93622
 11
8.034362
 21
9.607836
  0
LINE
  8
CYAN
 10
8.655068
 20
9.930589
 11
8.62784
 21
9.93622
  0
LINE
  8
CYAN
 10
8.343908
 20
9.779081
 11
8.362143
 21
9.771065
  0
ARC
  8
CYAN
 10
6.907645
 20
7.024879
 40
0.500624
 50
68.979498
 51
123.165602
  0
ARC
  8
CYAN
 10
6.814342
 20
7.039848
 40
0.409775
 50
55.7794
 51
137.042438
  0
ARC
  8
CYAN
 10
6.712741
 20
6.765263
 40
0.54032
 50
59.564004
 51
121.603812
  0
ARC
  8
CYAN
 10
6.523055
 20
6.537794
 40
0.469668
 50
61.411586
 51
123.302096
  0
ARC
  8
CYAN
 10
7.117817
 20
7.612843
 40
0.174588
 50
64.387274
 51
128.004406
  0
ARC
  8
CYAN
 10
7.056127
 20
7.358996
 40
0.34274
 50
72.100356
 51
131.873956
  0
ARC
  8
CYAN
 10
6.609787
 20
6.614705
 40
0.542698
 50
54.774649
 51
124.172806
  0
ARC
  8
GREEN
 10
8.743542
 20
7.530075
 40
0.114905
 50
327.62498
 51
238.20523
  0
ARC
  8
MAGENTA
 10
8.383822
 20
7.006216
 40
0.199898
 50
142.763823
 51
293.721073
  0
ARC
  8
MAGENTA
 10
8.801542
 20
7.269726
 40
0.20135
 50
333.042167
 51
128.418435
  0
CIRCLE
  8
GREEN
 10
8.997207
 20
7.580421
 40
0.124676
  0
ARC
  8
GREEN
 10
9.487229
 20
7.20077
 40
0.200166
 50
31.132252
 51
330.900785
  0
ARC
  8
MAGENTA
 10
8.623371
 20
6.640106
 40
0.181814
 50
125.891312
 51
313.666441
  0
ARC
  8
CYAN
 10
7.923308
 20
6.39982
 40
0.670519
 50
354.041264
 51
101.218647
  0
ARC
  8
YELLOW
 10
8.20249
 20
6.466748
 40
0.22795
 50
240.571616
 51
166.493646
  0
ARC
  8
RED
 10
7.880271
 20
6.777385
 40
0.219803
 50
286.313087
 51
199.016693
  0
ARC
  8
CYAN
 10
7.569833
 20
6.186456
 40
0.528879
 50
355.877276
 51
102.236256
  0
ARC
  8
BLUE
 10
9.575341
 20
6.856105
 40
0.14248
 50
338.09274
 51
44.873955
  0
ARC
  8
BLUE
 10
9.655083
 20
6.87615
 40
0.182683
 50
315.12714
 51
66.356516
  0
ARC
  8
BLUE
 10
9.639562
 20
6.894266
 40
0.270014
 50
336.15893
 51
59.081172
  0
ARC
  8
BLUE
 10
9.68021
 20
6.957987
 40
0.326156
 50
335.978951
 51
59.670855
  0
ARC
  8
BLUE
 10
9.783248
 20
7.018204
 40
0.306137
 50
325.097077
 51
71.518737
  0
ARC
  8
BLUE
 10
9.769351
 20
7.047515
 40
0.402095
 50
335.868984
 51
71.499123
  0
ARC
  8
YELLOW
 10
-0.036302
 20
0.132692
 40
0.873343
 50
23.298248
 51
86.773408
  0
ARC
  8
YELLOW
 10
0.219651
 20
0.403445
 40
0.762407
 50
8.036031
 51
104.288067
  0
ARC
  8
YELLOW
 10
0.064858
 20
0.249521
 40
0.798363
 50
16.78765
 51
93.332756
  0
ARC
  8
RED
 10
7.672397
 20
4.528001
 40
0.210501
 50
28.390447
 51
74.54496
  0
ARC
  8
RED
 10
7.450023
 20
4.466317
 40
0.077567
 50
67.808711
 51
258.296766
  0
ARC
  8
RED
 10
8.249955
 20
4.834952
 40
0.080596
 50
174.034875
 51
248.815957
  0
ARC
  8
RED
 10
7.872689
 20
4.806647
 40
0.088901
 50
39.00768
 51
132.452935
  0
ARC
  8
RED
 10
7.69697
 20
4.374005
 40
0.081727
 50
25.848641
 51
200.497247
  0
ARC
  8
RED
 10
7.686619
 20
4.398104
 40
0.252715
 50
15.929489
 51
208.395596
  0
ARC
  8
RED
 10
8.445518
 20
4.844541
 40
0.084075
 50
218.739831
 51
305.230688
  0
ARC
  8
RED
 10
7.916769
 20
4.938299
 40
0.095899
 50
43.20655
 51
186.854327
  0
ARC
  8
RED
 10
8.434954
 20
4.8604
 40
0.076061
 50
35.312672
 51
178.340142
  0
ARC
  8
YELLOW
 10
0.529652
 20
1.002434
 40
0.524739
 50
184.167747
 51
272.243375
  0
LINE
  8
WHITE
 10
0.157626
 20
1.55553
 11
1.078649
 21
3.098076
  0
LINE
  8
WHITE
 10
0.029027
 20
1.142686
 11
0.157626
 21
1.55553
  0
LINE
  8
YELLOW
 10
0.007594
 20
0.9592
 11
0.029027
 21
1.142686
  0
LINE
  8
YELLOW
 10
0.822056
 20
0.477548
 11
0.543424
 21
0.477548
  0
LINE
  8
RED
 10
0.393392
 20
1.234429
 11
0.082578
 21
1.301444
  0
LINE
  8
RED
 10
0.65059
 20
1.165622
 11
0.393392
 21
1.234429
  0
LINE
  8
RED
 10
1.036388
 20
1.050943
 11
0.65059
 21
1.165622
  0
LINE
  8
RED
 10
1.207854
 20
1.050943
 11
1.036388
 21
1.050943
  0
LINE
  8
RED
 10
1.522528
 20
1.100385
 11
1.207854
 21
1.050943
  0
LINE
  8
WHITE
 10
1.112299
 20
1.27383
 11
1.239009
 21
1.329985
  0
LINE
  8
WHITE
 10
1.121186
 20
1.411711
 11
1.325205
 21
1.536548
  0
LINE
  8
WHITE
 10
0.993522
 20
1.372044
 11
1.121186
 21
1.411711
  0
LINE
  8
WHITE
 10
0.736323
 20
1.326172
 11
0.993522
 21
1.372044
  0
LINE
  8
WHITE
 10
0.623563
 20
1.321375
 11
0.736323
 21
1.326172
  0
LINE
  8
WHITE
 10
0.436258
 20
1.372044
 11
0.623563
 21
1.321375
  0
LINE
  8
WHITE
 10
0.286226
 20
1.417915
 11
0.436258
 21
1.372044
  0
LINE
  8
WHITE
 10
0.162172
 20
1.553416
 11
0.286226
 21
1.417915
  0
LINE
  8
WHITE
 10
0.757756
 20
1.349108
 11
0.864923
 21
1.532594
  0
LINE
  8
WHITE
 10
0.329092
 20
1.463787
 11
0.757756
 21
1.349108
  0
LINE
  8
WHITE
 10
0.436258
 20
1.624337
 11
0.329092
 21
1.463787
  0
LINE
  8
WHITE
 10
0.866472
 20
1.533181
 11
0.436258
 21
1.624337
  0
LINE
  8
WHITE
 10
1.079255
 20
1.945438
 11
1.166743
 21
2.081547
  0
LINE
  8
WHITE
 10
0.71489
 20
2.037181
 11
1.079255
 21
1.945438
  0
LINE
  8
WHITE
 10
0.77919
 20
2.15186
 11
0.71489
 21
2.037181
  0
LINE
  8
WHITE
 10
1.166743
 20
2.081547
 11
0.77919
 21
2.15186
  0
LINE
  8
YELLOW
 10
1.400753
 20
0.638099
 11
1.818057
 21
0.802769
  0
LINE
  8
YELLOW
 10
1.250721
 20
0.592227
 11
1.400753
 21
0.638099
  0
LINE
  8
YELLOW
 10
1.036388
 20
0.52342
 11
1.250721
 21
0.592227
  0
LINE
  8
YELLOW
 10
0.822056
 20
0.477548
 11
1.036388
 21
0.52342
  0
LINE
  8
CYAN
 10
6.317828
 20
6.236902
 11
5.031135
 21
5.341672
  0
LINE
  8
CYAN
 10
6.919217
 20
6.582569
 11
7.084121
 21
6.582612
  0
LINE
  8
CYAN
 10
9.201251
 20
7.151726
 11
8.857471
 21
7.504683
  0
POINT
  8
CYAN
 10
9.46977
 20
7.66055
  0
POINT
  8
CYAN
 10
9.555503
 20
7.706422
  0
POINT
  8
CYAN
 10
9.641236
 20
7.752294
  0
POINT
  8
CYAN
 10
9.641236
 20
7.5
  0
POINT
  8
CYAN
 10
9.726969
 20
7.545872
  0
POINT
  8
CYAN
 10
9.812702
 20
7.614679
  0
LINE
  8
CYAN
 10
7.966255
 20
5.846535
 11
7.926267
 21
5.912456
  0
LINE
  8
CYAN
 10
6.991242
 20
5.61804
 11
5.830467
 21
4.797552
  0
LINE
  8
CYAN
 10
6.532373
 20
5.799906
 11
5.268859
 21
4.908257
  0
LINE
  8
CYAN
 10
6.400661
 20
5.977225
 11
5.118827
 21
5.16055
  0
LINE
  8
CYAN
 10
5.61912
 20
6.427616
 11
5.341249
 21
6.223814
  0
LINE
  8
CYAN
 10
4.850505
 20
6.02376
 11
4.938136
 21
5.880475
  0
LINE
  8
YELLOW
 10
4.807672
 20
5.987473
 11
4.890881
 21
5.848134
  0
LINE
  8
CYAN
 10
5.210119
 20
6.060103
 11
4.864521
 21
6.236664
  0
LINE
  8
CYAN
 10
4.872927
 20
6.317362
 11
4.834554
 21
6.4229
  0
LINE
  8
YELLOW
 10
4.535735
 20
6.461026
 11
4.475304
 21
6.494938
  0
LINE
  8
CYAN
 10
4.826095
 20
6.628077
 11
4.682742
 21
6.628221
  0
LINE
  8
CYAN
 10
4.799229
 20
6.537019
 11
4.826095
 21
6.628077
  0
LINE
  8
CYAN
 10
11.589388
 20
5.498619
 11
11.148985
 21
5.169014
  0
LINE
  8
CYAN
 10
8.688933
 20
6.890645
 11
8.637977
 21
6.944582
  0
LINE
  8
CYAN
 10
8.741041
 20
4.747706
 11
8.728179
 21
4.804778
  0
LINE
  8
CYAN
 10
8.871095
 20
4.902918
 11
8.815239
 21
4.75659
  0
LINE
  8
CYAN
 10
8.891073
 20
4.770642
 11
8.871095
 21
4.902918
  0
LINE
  8
CYAN
 10
9.004369
 20
4.991104
 11
8.980353
 21
4.878666
  0
LINE
  8
CYAN
 10
9.062539
 20
4.908257
 11
9.004369
 21
4.991104
  0
LINE
  8
CYAN
 10
9.167504
 20
5.102104
 11
9.105406
 21
4.885321
  0
LINE
  8
CYAN
 10
9.212572
 20
4.885321
 11
9.167504
 21
5.102104
  0
LINE
  8
CYAN
 10
9.384671
 20
4.88856
 11
9.365758
 21
4.845191
  0
LINE
  8
CYAN
 10
9.411689
 20
4.853865
 11
9.384671
 21
4.88856
  0
LINE
  8
CYAN
 10
9.578465
 20
5.02764
 11
9.506255
 21
4.868322
  0
LINE
  8
CYAN
 10
9.608925
 20
4.885669
 11
9.578465
 21
5.02764
  0
LINE
  8
CYAN
 10
9.276052
 20
5.174721
 11
9.234005
 21
5.114679
  0
LINE
  8
CYAN
 10
9.319738
 20
5.114679
 11
9.276052
 21
5.174721
  0
LINE
  8
CYAN
 10
9.457506
 20
5.296983
 11
9.384038
 21
5.114679
  0
LINE
  8
CYAN
 10
9.491204
 20
5.091743
 11
9.457506
 21
5.296983
  0
LINE
  8
CYAN
 10
9.708894
 20
5.119862
 11
9.684103
 21
5.022936
  0
LINE
  8
CYAN
 10
9.726969
 20
5.045872
 11
9.708894
 21
5.119862
  0
LINE
  8
CYAN
 10
9.855889
 20
5.22442
 11
9.812702
 21
5.045872
  0
LINE
  8
CYAN
 10
9.919868
 20
5.0
 11
9.855889
 21
5.22442
  0
LINE
  8
CYAN
 10
10.155633
 20
5.068807
 11
10.1342
 21
5.0
  0
LINE
  8
CYAN
 10
10.177067
 20
5.0
 11
10.155633
 21
5.068807
  0
LINE
  8
CYAN
 10
10.252639
 20
5.020904
 11
10.267734
 21
5.149404
  0
LINE
  8
CYAN
 10
10.335233
 20
5.043776
 11
10.267734
 21
5.149404
  0
LINE
  8
CYAN
 10
9.614832
 20
5.40255
 11
9.59837
 21
5.298165
  0
LINE
  8
CYAN
 10
9.662669
 20
5.321101
 11
9.614832
 21
5.40255
  0
LINE
  8
CYAN
 10
9.761453
 20
5.501233
 11
9.687279
 21
5.261534
  0
LINE
  8
CYAN
 10
9.834135
 20
5.298165
 11
9.761453
 21
5.501233
  0
LINE
  8
CYAN
 10
9.984484
 20
5.313577
 11
9.941301
 21
5.229358
  0
LINE
  8
CYAN
 10
10.048467
 20
5.206422
 11
9.984484
 21
5.313577
  0
LINE
  8
CYAN
 10
10.15028
 20
5.433235
 11
10.182751
 21
5.203882
  0
LINE
  8
CYAN
 10
10.10651
 20
5.264875
 11
10.15028
 21
5.433235
  0
LINE
  8
CYAN
 10
10.455699
 20
5.275229
 11
10.455699
 21
5.16055
  0
LINE
  8
CYAN
 10
10.498565
 20
5.137615
 11
10.455699
 21
5.275229
  0
LINE
  8
CYAN
 10
10.571842
 20
5.363201
 11
10.562865
 21
5.137615
  0
LINE
  8
CYAN
 10
10.670031
 20
5.137615
 11
10.571842
 21
5.363201
  0
LINE
  8
CYAN
 10
10.830165
 20
5.177688
 11
10.800445
 21
5.122753
  0
LINE
  8
CYAN
 10
10.867991
 20
5.131427
 11
10.830165
 21
5.177688
  0
LINE
  8
CYAN
 10
10.969286
 20
5.290005
 11
10.927229
 21
5.206422
  0
LINE
  8
CYAN
 10
11.016594
 20
5.148775
 11
10.969286
 21
5.290005
  0
LINE
  8
CYAN
 10
9.644049
 20
5.805093
 11
9.362604
 21
5.573394
  0
LINE
  8
CYAN
 10
9.683728
 20
5.623172
 11
9.644049
 21
5.805093
  0
LINE
  8
CYAN
 10
9.473832
 20
5.663421
 11
9.362604
 21
5.848624
  0
LINE
  8
CYAN
 10
9.885753
 20
5.584369
 11
9.473832
 21
5.663421
  0
LINE
  8
CYAN
 10
9.885298
 20
5.584456
 11
9.877002
 21
5.504587
  0
LINE
  8
CYAN
 10
9.984168
 20
5.481651
 11
9.885298
 21
5.584456
  0
LINE
  8
CYAN
 10
10.106067
 20
5.732812
 11
10.091334
 21
5.504587
  0
LINE
  8
CYAN
 10
10.155633
 20
5.527523
 11
10.106067
 21
5.732812
  0
LINE
  8
CYAN
 10
10.311408
 20
5.54777
 11
10.305666
 21
5.412844
  0
LINE
  8
CYAN
 10
10.369966
 20
5.412844
 11
10.311408
 21
5.54777
  0
LINE
  8
CYAN
 10
10.487089
 20
5.672138
 11
10.434265
 21
5.412844
  0
LINE
  8
CYAN
 10
10.541431
 20
5.458716
 11
10.487089
 21
5.672138
  0
LINE
  8
CYAN
 10
10.754513
 20
5.489945
 11
10.712897
 21
5.366972
  0
LINE
  8
CYAN
 10
10.777197
 20
5.366972
 11
10.754513
 21
5.489945
  0
LINE
  8
CYAN
 10
10.91561
 20
5.604882
 11
10.86293
 21
5.366972
  0
LINE
  8
CYAN
 10
10.948663
 20
5.412844
 11
10.91561
 21
5.604882
  0
LINE
  8
CYAN
 10
11.073333
 20
5.371403
 11
11.034395
 21
5.321101
  0
LINE
  8
CYAN
 10
11.120128
 20
5.321101
 11
11.073333
 21
5.371403
  0
LINE
  8
CYAN
 10
11.293135
 20
5.54563
 11
11.184428
 21
5.321101
  0
LINE
  8
CYAN
 10
11.270161
 20
5.344037
 11
11.293135
 21
5.54563
  0
LINE
  8
CYAN
 10
11.377327
 20
5.344037
 11
11.334461
 21
5.275229
  0
LINE
  8
CYAN
 10
11.441627
 20
5.252294
 11
11.377327
 21
5.344037
  0
LINE
  8
CYAN
 10
11.589956
 20
5.499044
 11
11.484493
 21
5.275229
  0
LINE
  8
CYAN
 10
11.591659
 20
5.321101
 11
11.589956
 21
5.499044
  0
LINE
  8
CYAN
 10
11.873279
 20
5.454577
 11
11.763125
 21
5.252294
  0
LINE
  8
CYAN
 10
11.889294
 20
5.270208
 11
11.873279
 21
5.454577
  0
LINE
  8
GREEN
 10
4.826095
 20
6.628077
 11
4.924154
 21
6.736985
  0
LINE
  8
GREEN
 10
5.097394
 20
6.720183
 11
4.916637
 21
6.618054
  0
LINE
  8
GREEN
 10
5.033094
 20
6.605505
 11
5.097394
 21
6.720183
  0
LINE
  8
GREEN
 10
5.230463
 20
6.70677
 11
5.0705
 21
6.599784
  0
LINE
  8
GREEN
 10
5.185142
 20
6.587985
 11
5.230463
 21
6.70677
  0
LINE
  8
GREEN
 10
5.413058
 20
6.688216
 11
5.267788
 21
6.577673
  0
LINE
  8
GREEN
 10
5.353738
 20
6.567939
 11
5.413058
 21
6.688216
  0
LINE
  8
GREEN
 10
5.604378
 20
6.670394
 11
5.440325
 21
6.559633
  0
LINE
  8
GREEN
 10
5.522396
 20
6.549144
 11
5.604378
 21
6.670394
  0
LINE
  8
GREEN
 10
5.80469
 20
6.651376
 11
5.613709
 21
6.539158
  0
LINE
  8
GREEN
 10
5.718351
 20
6.52632
 11
5.80469
 21
6.651376
  0
LINE
  8
GREEN
 10
5.961105
 20
6.636084
 11
5.773672
 21
6.520614
  0
LINE
  8
GREEN
 10
8.312377
 20
7.821101
 11
8.175156
 21
7.801751
  0
LINE
  8
GREEN
 10
8.633875
 20
8.073394
 11
8.312377
 21
7.821101
  0
LINE
  8
YELLOW
 10
7.862279
 20
9.334862
 11
7.000843
 21
6.842904
  0
LINE
  8
YELLOW
 10
7.235339
 20
6.897118
 11
6.890833
 21
6.973018
  0
LINE
  8
YELLOW
 10
7.262842
 20
7.172837
 11
6.978498
 21
7.205587
  0
LINE
  8
YELLOW
 10
7.338112
 20
7.406733
 11
7.074666
 21
7.454751
  0
LINE
  8
YELLOW
 10
7.416278
 20
7.637531
 11
7.161161
 21
7.684419
  0
LINE
  8
YELLOW
 10
7.500875
 20
7.885395
 11
7.249542
 21
7.91495
  0
LINE
  8
YELLOW
 10
7.585364
 20
8.138987
 11
7.347882
 21
8.165138
  0
LINE
  8
YELLOW
 10
7.664411
 20
8.374154
 11
7.439043
 21
8.416148
  0
LINE
  8
YELLOW
 10
7.746309
 20
8.624233
 11
7.51905
 21
8.622684
  0
LINE
  8
YELLOW
 10
7.819412
 20
8.853211
 11
7.613955
 21
8.875085
  0
LINE
  8
YELLOW
 10
7.898297
 20
9.079633
 11
7.704331
 21
9.096672
  0
LINE
  8
YELLOW
 10
7.985147
 20
9.336764
 11
7.797979
 21
9.334862
  0
LINE
  8
CYAN
 10
8.229558
 20
9.380364
 11
7.990878
 21
9.357798
  0
LINE
  8
CYAN
 10
8.205168
 20
9.198905
 11
7.922904
 21
9.150886
  0
LINE
  8
CYAN
 10
8.177665
 20
9.013027
 11
7.862279
 21
8.96789
  0
LINE
  8
CYAN
 10
8.15161
 20
8.830247
 11
7.807104
 21
8.807012
  0
LINE
  8
CYAN
 10
7.833159
 20
8.644369
 11
7.753546
 21
8.638173
  0
LINE
  8
CYAN
 10
8.11108
 20
8.55143
 11
7.701436
 21
8.486373
  0
LINE
  8
CYAN
 10
7.763679
 20
8.394983
 11
7.664411
 21
8.374154
  0
LINE
  8
CYAN
 10
7.715911
 20
8.210654
 11
7.602743
 21
8.19118
  0
LINE
  8
CYAN
 10
8.048837
 20
8.117715
 11
7.550589
 21
8.030215
  0
LINE
  8
CYAN
 10
8.02423
 20
7.961268
 11
7.481542
 21
7.826284
  0
LINE
  8
CYAN
 10
7.99528
 20
7.753705
 11
7.416278
 21
7.637531
  0
LINE
  8
CYAN
 10
7.834607
 20
7.546141
 11
7.35693
 21
7.459398
  0
LINE
  8
CYAN
 10
7.804209
 20
7.36491
 11
7.288897
 21
7.248737
  0
LINE
  8
CYAN
 10
7.407592
 20
7.084545
 11
7.259947
 21
7.067506
  0
LINE
  8
CYAN
 10
6.297003
 20
6.799805
 11
6.294765
 21
6.749061
  0
LINE
  8
CYAN
 10
6.361954
 20
6.811927
 11
6.297003
 21
6.799805
  0
LINE
  8
CYAN
 10
6.576286
 20
6.880734
 11
6.361954
 21
6.811927
  0
LINE
  8
CYAN
 10
6.747751
 20
6.949541
 11
6.576286
 21
6.880734
  0
LINE
  8
CYAN
 10
6.922812
 20
7.060867
 11
6.747751
 21
6.949541
  0
LINE
  8
CYAN
 10
8.591008
 20
6.330275
 11
8.427078
 21
6.431135
  0
LINE
  8
RED
 10
7.151691
 20
5.93875
 11
7.071832
 21
5.894163
  0
LINE
  8
RED
 10
5.783257
 20
4.908257
 11
5.873617
 21
4.695647
  0
LINE
  8
CYAN
 10
6.400661
 20
5.977225
 11
6.343873
 21
6.152246
  0
LINE
  8
CYAN
 10
6.343873
 20
6.152246
 11
6.317828
 21
6.236902
  0
LINE
  8
CYAN
 10
5.054527
 20
5.298165
 11
6.343873
 21
6.152246
  0
LINE
  8
CYAN
 10
9.16059
 20
7.730177
 11
8.857471
 21
7.504683
  0
LINE
  8
BLUE
 10
9.195312
 20
7.360187
 11
9.063462
 21
7.475858
  0
LINE
  8
BLUE
 10
9.319738
 20
7.477064
 11
9.202439
 21
7.56992
  0
LINE
  8
BLUE
 10
9.126839
 20
7.293578
 11
9.319738
 21
7.477064
  0
LINE
  8
BLUE
 10
8.99824
 20
7.431193
 11
9.126839
 21
7.293578
  0
LINE
  8
BLUE
 10
9.202145
 20
7.571017
 11
8.99824
 21
7.431193
  0
LINE
  8
BLUE
 10
8.675406
 20
7.979509
 11
8.467079
 21
7.642177
  0
LINE
  8
CYAN
 10
9.726969
 20
7.224771
 11
9.726969
 21
7.155963
  0
LINE
  8
CYAN
 10
10.105407
 20
6.212248
 11
9.657559
 21
5.975678
  0
LINE
  8
CYAN
 10
10.091334
 20
6.215596
 11
9.362385
 21
5.848599
  0
LINE
  8
GREEN
 10
12.988951
 20
5.484162
 11
10.091334
 21
6.215596
  0
CIRCLE
  8
BLUE
 10
3.270882
 20
2.345132
 40
0.198339
  0
CIRCLE
  8
BLUE
 10
3.284731
 20
2.33945
 40
0.055138
  0
LINE
  8
RED
 10
7.926579
 20
4.931193
 11
7.948012
 21
4.816514
  0
LINE
  8
RED
 10
7.821284
 20
4.927012
 11
7.926579
 21
4.931193
  0
LINE
  8
RED
 10
7.797979
 20
4.770642
 11
7.821284
 21
4.927012
  0
LINE
  8
RED
 10
7.776546
 20
4.770642
 11
7.540781
 21
4.610092
  0
LINE
  8
RED
 10
7.840846
 20
4.770642
 11
7.776546
 21
4.770642
  0
LINE
  8
RED
 10
7.883712
 20
4.724771
 11
7.840846
 21
4.770642
  0
LINE
  8
RED
 10
7.883712
 20
4.655963
 11
7.883712
 21
4.724771
  0
LINE
  8
RED
 10
7.82756
 20
4.605601
 11
7.883712
 21
4.655963
  0
LINE
  8
RED
 10
8.140911
 20
4.977064
 11
7.900917
 21
4.811603
  0
LINE
  8
RED
 10
8.183777
 20
4.931193
 11
8.140911
 21
4.977064
  0
LINE
  8
RED
 10
7.995598
 20
4.822339
 11
8.183777
 21
4.931193
  0
LINE
  8
RED
 10
8.355243
 20
4.862385
 11
8.376676
 21
4.793578
  0
LINE
  8
RED
 10
7.801847
 20
4.800196
 11
8.355243
 21
4.862385
  0
LINE
  8
RED
 10
8.033745
 20
4.724771
 11
7.967382
 21
4.818984
  0
LINE
  8
RED
 10
8.376676
 20
4.793578
 11
7.884599
 21
4.69234
  0
LINE
  8
CYAN
 10
12.613392
 20
5.429228
 11
9.626229
 21
5.980713
  0
LINE
  8
GREEN
 10
11.616406
 20
5.831115
 11
11.354326
 21
5.663421
  0
LINE
  8
GREEN
 10
11.441627
 20
5.642202
 11
11.616406
 21
5.831115
  0
LINE
  8
GREEN
 10
12.137865
 20
5.698116
 11
11.913611
 21
5.559335
  0
LINE
  8
GREEN
 10
11.994667
 20
5.541988
 11
12.137865
 21
5.698116
  0
LINE
  8
MAGENTA
 10
8.673621
 20
7.42639
 11
8.224673
 21
7.127175
  0
LINE
  8
RED
 10
7.06772
 20
5.777173
 11
7.138529
 21
5.572284
  0
LINE
  8
CYAN
 10
6.37403
 20
6.05757
 11
7.121264
 21
5.921296
  0
LINE
  8
CYAN
 10
6.250386
 20
6.285016
 11
7.366871
 21
6.110202
  0
LINE
  8
CYAN
 10
6.361954
 20
6.422018
 11
7.646966
 21
6.247467
  0
LINE
  8
CYAN
 10
9.384038
 20
7.844037
 11
9.235956
 21
7.714223
  0
LINE
  8
CYAN
 10
9.641236
 20
7.775229
 11
9.749938
 21
7.75071
  0
LINE
  8
CYAN
 10
9.405471
 20
7.66055
 11
9.641236
 21
7.775229
  0
LINE
  8
CYAN
 10
9.132357
 20
7.703386
 11
8.928059
 21
7.731564
  0
LINE
  8
CYAN
 10
9.384038
 20
7.614679
 11
9.132357
 21
7.703386
  0
LINE
  8
CYAN
 10
9.769835
 20
7.362385
 11
9.384038
 21
7.614679
  0
LINE
  8
CYAN
 10
9.843868
 20
7.238161
 11
9.769835
 21
7.362385
  0
LINE
  8
BLUE
 10
10.136308
 20
6.883129
 11
9.751243
 21
6.736124
  0
LINE
  8
GREEN
 10
2.332508
 20
3.738532
 11
2.503974
 21
3.830275
  0
LINE
  8
GREEN
 10
2.139609
 20
3.784404
 11
2.332508
 21
3.738532
  0
LINE
  8
GREEN
 10
2.289642
 20
3.876147
 11
2.139609
 21
3.784404
  0
LINE
  8
GREEN
 10
2.505665
 20
3.82967
 11
2.289642
 21
3.876147
  0
LINE
  8
GREEN
 10
2.632573
 20
3.646789
 11
2.804039
 21
3.738532
  0
LINE
  8
GREEN
 10
2.408414
 20
3.705607
 11
2.632573
 21
3.646789
  0
LINE
  8
GREEN
 10
2.562816
 20
3.799384
 11
2.408414
 21
3.705607
  0
LINE
  8
GREEN
 10
2.802153
 20
3.738419
 11
2.562816
 21
3.799384
  0
LINE
  8
BLUE
 10
1.496613
 20
3.692661
 11
1.603779
 21
3.761468
  0
LINE
  8
BLUE
 10
1.41088
 20
3.623853
 11
1.496613
 21
3.692661
  0
LINE
  8
BLUE
 10
1.34658
 20
3.486239
 11
1.41088
 21
3.623853
  0
LINE
  8
WHITE
 10
1.078649
 20
3.098076
 11
1.34658
 21
3.486239
  0
LINE
  8
RED
 10
2.375375
 20
1.536697
 11
1.518046
 21
1.100917
  0
LINE
  8
RED
 10
2.589707
 20
1.605505
 11
2.375375
 21
1.536697
  0
LINE
  8
RED
 10
2.825472
 20
1.605505
 11
2.589707
 21
1.605505
  0
LINE
  8
RED
 10
3.125537
 20
1.605505
 11
2.825472
 21
1.605505
  0
LINE
  8
YELLOW
 10
3.918566
 20
2.041284
 11
3.125537
 21
1.605505
  0
LINE
  8
YELLOW
 10
5.761823
 20
3.394495
 11
3.918566
 21
2.041284
  0
LINE
  8
YELLOW
 10
5.997589
 20
3.509174
 11
5.761823
 21
3.394495
  0
LINE
  8
RED
 10
2.311075
 20
1.376147
 11
1.560912
 21
1.009174
  0
LINE
  8
RED
 10
2.654007
 20
1.513761
 11
2.311075
 21
1.376147
  0
LINE
  8
RED
 10
2.825472
 20
1.536697
 11
2.654007
 21
1.513761
  0
LINE
  8
RED
 10
3.082671
 20
1.582569
 11
2.825472
 21
1.536697
  0
LINE
  8
YELLOW
 10
3.94
 20
2.041284
 11
3.082671
 21
1.582569
  0
LINE
  8
YELLOW
 10
5.826123
 20
3.348624
 11
3.94
 21
2.041284
  0
LINE
  8
YELLOW
 10
6.029322
 20
3.468368
 11
5.826123
 21
3.348624
  0
LINE
  8
YELLOW
 10
3.8757
 20
1.972477
 11
1.818111
 21
0.917431
  0
LINE
  8
YELLOW
 10
4.090032
 20
2.06422
 11
3.8757
 21
1.972477
  0
LINE
  8
YELLOW
 10
5.868989
 20
3.325688
 11
4.090032
 21
2.06422
  0
LINE
  8
YELLOW
 10
6.053339
 20
3.426606
 11
5.868989
 21
3.325688
  0
LINE
  8
YELLOW
 10
5.721281
 20
2.91167
 11
1.818111
 21
0.802752
  0
LINE
  8
YELLOW
 10
6.104374
 20
3.371993
 11
5.960275
 21
3.278829
  0
LINE
  8
YELLOW
 10
5.933289
 20
3.302752
 11
6.150027
 21
3.103954
  0
LINE
  8
YELLOW
 10
5.585017
 20
3.455518
 11
5.933289
 21
3.302752
  0
LINE
  8
WHITE
 10
5.957993
 20
3.622569
 11
5.585017
 21
3.455518
  0
LINE
  8
WHITE
 10
2.07531
 20
1.399083
 11
1.668078
 21
1.215596
  0
LINE
  8
WHITE
 10
1.903844
 20
1.651376
 11
2.07531
 21
1.399083
  0
LINE
  8
WHITE
 10
1.518046
 20
1.444954
 11
1.903844
 21
1.651376
  0
LINE
  8
WHITE
 10
1.668078
 20
1.215596
 11
1.518046
 21
1.444954
  0
LINE
  8
WHITE
 10
1.753811
 20
1.720183
 11
1.495413
 21
1.604135
  0
LINE
  8
WHITE
 10
1.668078
 20
1.834862
 11
1.753811
 21
1.720183
  0
LINE
  8
WHITE
 10
1.560912
 20
1.90367
 11
1.668078
 21
1.834862
  0
LINE
  8
WHITE
 10
1.325147
 20
1.720183
 11
1.560912
 21
1.90367
  0
LINE
  8
WHITE
 10
1.496613
 20
1.605505
 11
1.325147
 21
1.720183
  0
LINE
  8
WHITE
 10
3.318436
 20
2.752294
 11
1.325147
 21
1.536697
  0
LINE
  8
WHITE
 10
3.425602
 20
2.431193
 11
3.468469
 21
2.637615
  0
LINE
  8
WHITE
 10
3.361303
 20
2.133028
 11
3.425602
 21
2.431193
  0
LINE
  8
WHITE
 10
4.54013
 20
2.591743
 11
3.452151
 21
2.048177
  0
LINE
  8
WHITE
 10
2.868339
 20
2.178899
 11
1.239414
 21
1.330275
  0
LINE
  8
WHITE
 10
3.21127
 20
1.766055
 11
2.868339
 21
2.178899
  0
LINE
  8
WHITE
 10
4.582996
 20
2.614679
 11
3.21127
 21
1.766055
  0
LINE
  8
WHITE
 10
5.894229
 20
3.715733
 11
4.582996
 21
2.614679
  0
LINE
  8
WHITE
 10
5.789157
 20
3.947034
 11
4.561563
 21
2.614679
  0
LINE
  8
WHITE
 10
5.744126
 20
4.05626
 11
4.54013
 21
2.591743
  0
LINE
  8
RED
 10
1.260847
 20
3.348624
 11
1.282192
 21
3.303691
  0
LINE
  8
RED
 10
1.196548
 20
3.256881
 11
1.260847
 21
3.348624
  0
LINE
  8
RED
 10
1.196548
 20
3.165138
 11
1.196548
 21
3.256881
  0
LINE
  8
RED
 10
1.28228
 20
3.302752
 11
1.196548
 21
3.165138
  0
LINE
  8
RED
 10
1.34658
 20
3.165138
 11
1.260847
 21
3.027523
  0
LINE
  8
RED
 10
1.28228
 20
3.233945
 11
1.34658
 21
3.165138
  0
LINE
  8
RED
 10
1.153681
 20
3.073394
 11
1.28228
 21
3.233945
  0
LINE
  8
RED
 10
1.259396
 20
3.030119
 11
1.153681
 21
3.073394
  0
LINE
  8
RED
 10
1.368013
 20
3.09633
 11
1.453746
 21
2.958716
  0
LINE
  8
RED
 10
1.303714
 20
3.004587
 11
1.368013
 21
3.09633
  0
LINE
  8
RED
 10
1.34658
 20
2.775229
 11
1.303714
 21
3.004587
  0
LINE
  8
RED
 10
1.41088
 20
2.775229
 11
1.34658
 21
2.775229
  0
LINE
  8
RED
 10
1.453746
 20
2.958716
 11
1.41088
 21
2.775229
  0
LINE
  8
BLUE
 10
1.668078
 20
3.073394
 11
1.432313
 21
2.683486
  0
LINE
  8
RED
 10
1.839544
 20
2.889908
 11
2.053876
 21
2.866972
  0
LINE
  8
RED
 10
1.689512
 20
2.729358
 11
1.839544
 21
2.889908
  0
LINE
  8
RED
 10
1.753811
 20
2.66055
 11
1.689512
 21
2.729358
  0
LINE
  8
RED
 10
2.07531
 20
2.706422
 11
1.753811
 21
2.66055
  0
LINE
  8
RED
 10
2.053876
 20
2.866972
 11
2.07531
 21
2.706422
  0
LINE
  8
RED
 10
2.161042
 20
2.866972
 11
2.417149
 21
2.890719
  0
LINE
  8
RED
 10
2.182476
 20
2.706422
 11
2.161042
 21
2.866972
  0
LINE
  8
RED
 10
2.54684
 20
2.706422
 11
2.182476
 21
2.706422
  0
LINE
  8
RED
 10
2.418241
 20
2.889908
 11
2.54684
 21
2.706422
  0
LINE
  8
RED
 10
2.804039
 20
2.889908
 11
2.696873
 21
3.027523
  0
LINE
  8
RED
 10
2.61114
 20
2.729358
 11
2.804039
 21
2.889908
  0
LINE
  8
RED
 10
2.525407
 20
2.958716
 11
2.61114
 21
2.729358
  0
LINE
  8
RED
 10
2.697225
 20
3.026634
 11
2.525407
 21
2.958716
  0
LINE
  8
BLUE
 10
3.789967
 20
2.729358
 11
5.678081
 21
4.210461
  0
LINE
  8
BLUE
 10
1.668078
 20
3.073394
 11
3.063672
 21
3.214527
  0
LINE
  8
BLUE
 10
1.35384
 20
3.498851
 11
1.668078
 21
3.073394
  0
LINE
  8
BLUE
 10
2.501782
 20
3.288153
 11
3.166877
 21
3.410864
  0
LINE
  8
BLUE
 10
1.796678
 20
3.233945
 11
2.501782
 21
3.288153
  0
LINE
  8
BLUE
 10
1.466196
 20
3.666131
 11
1.796678
 21
3.233945
  0
LINE
  8
BLUE
 10
1.689512
 20
3.165138
 11
1.407575
 21
3.610371
  0
LINE
  8
BLUE
 10
2.46738
 20
3.226798
 11
1.689512
 21
3.165138
  0
LINE
  8
BLUE
 10
3.138044
 20
3.358491
 11
2.46738
 21
3.226798
  0
LINE
  8
BLUE
 10
3.658334
 20
2.993241
 11
3.515983
 21
3.21014
  0
LINE
  8
BLUE
 10
5.590358
 20
4.220183
 11
3.832834
 21
2.889908
  0
LINE
  8
BLUE
 10
5.418892
 20
4.610092
 11
3.661368
 21
3.348624
  0
LINE
  8
BLUE
 10
3.768534
 20
3.211009
 11
3.661368
 21
3.348624
  0
LINE
  8
BLUE
 10
3.8114
 20
3.09633
 11
3.768534
 21
3.211009
  0
LINE
  8
BLUE
 10
5.589234
 20
4.283526
 11
3.8114
 21
3.09633
  0
LINE
  8
BLUE
 10
4.925928
 20
5.527523
 11
2.626359
 21
3.890036
  0
LINE
  8
BLUE
 10
3.768534
 20
3.211009
 11
5.461758
 21
4.449541
  0
LINE
  8
BLUE
 10
3.073679
 20
3.466223
 11
3.19177
 21
3.497281
  0
LINE
  8
BLUE
 10
2.525407
 20
3.348624
 11
3.073679
 21
3.466223
  0
LINE
  8
BLUE
 10
1.860977
 20
3.325688
 11
2.525407
 21
3.348624
  0
LINE
  8
BLUE
 10
1.560912
 20
3.692661
 11
1.860977
 21
3.325688
  0
LINE
  8
BLUE
 10
1.603779
 20
3.761468
 11
1.560912
 21
3.692661
  0
LINE
  8
BLUE
 10
4.82129
 20
5.802163
 11
1.603779
 21
3.761468
  0
CIRCLE
  8
RED
 10
7.967882
 20
4.936944
 40
0.066113
  0
CIRCLE
  8
RED
 10
8.508629
 20
4.83945
 40
0.065119
  0
ARC
  8
RED
 10
7.371233
 20
4.474196
 40
0.217288
 50
38.712782
 51
286.684
  0
ARC
  8
MAGENTA
 10
9.173758
 20
6.959142
 40
0.195698
 50
328.811282
 51
117.309548
  0
LINE
  8
GREEN
 10
7.926267
 20
5.912456
 11
5.589234
 21
4.283526
  0
LINE
  8
CYAN
 10
5.568924
 20
4.311927
 11
7.916541
 21
5.913612
  0
LINE
  8
CYAN
 10
7.776546
 20
5.917431
 11
5.504625
 21
4.380734
  0
LINE
  8
CYAN
 10
7.926267
 20
5.912456
 11
7.776546
 21
5.917431
  0
LINE
  8
GREEN
 10
5.483192
 20
4.426606
 11
7.854938
 21
6.068584
  0
LINE
  8
CYAN
 10
5.702504
 20
4.577821
 11
5.441834
 21
4.66439
  0
LINE
  8
CYAN
 10
5.773925
 20
4.762522
 11
5.461758
 21
4.541284
  0
LINE
  8
CYAN
 10
5.657865
 20
4.816659
 11
5.773925
 21
4.762522
  0
LINE
  8
RED
 10
5.823027
 20
4.660618
 11
5.726311
 21
4.867611
  0
LINE
  8
CYAN
 10
5.906352
 20
4.850096
 11
6.050682
 21
4.818251
  0
LINE
  8
CYAN
 10
5.906352
 20
4.850096
 11
5.783257
 21
4.908257
  0
LINE
  8
CYAN
 10
6.073001
 20
4.967922
 11
6.211921
 21
4.931193
  0
LINE
  8
CYAN
 10
6.447686
 20
5.091743
 11
6.187572
 21
5.155808
  0
LINE
  8
CYAN
 10
6.379508
 20
5.291073
 11
6.613989
 21
5.207697
  0
LINE
  8
CYAN
 10
6.764897
 20
5.314507
 11
6.521305
 21
5.393344
  0
LINE
  8
CYAN
 10
6.927687
 20
5.426404
 11
6.685284
 21
5.509055
  0
LINE
  8
CYAN
 10
6.991242
 20
5.61804
 11
6.880653
 21
5.646444
  0
LINE
  8
CYAN
 10
7.138842
 20
5.572109
 11
6.991242
 21
5.61804
  0
LINE
  8
RED
 10
7.176278
 20
5.59806
 11
7.104634
 21
5.802204
  0
LINE
  8
CYAN
 10
7.533625
 20
5.842146
 11
7.205692
 21
5.899394
  0
LINE
  8
RED
 10
7.533625
 20
5.842146
 11
7.420598
 21
6.030807
  0
LINE
  8
RED
 10
7.498629
 20
6.077349
 11
7.596123
 21
5.886732
  0
LINE
  8
CYAN
 10
7.785765
 20
6.018145
 11
7.498629
 21
6.077349
  0
LINE
  8
CYAN
 10
6.919217
 20
6.582569
 11
6.897353
 21
6.67892
  0
LINE
  8
CYAN
 10
7.17394
 20
6.654675
 11
6.741271
 21
6.692576
  0
LINE
  8
CYAN
 10
5.147676
 20
5.485447
 11
5.116454
 21
5.575655
  0
LINE
  8
CYAN
 10
5.357972
 20
5.627916
 11
5.325306
 21
5.723248
  0
LINE
  8
CYAN
 10
5.548025
 20
5.755026
 11
5.521299
 21
5.856714
  0
LINE
  8
CYAN
 10
5.714322
 20
5.869426
 11
5.676091
 21
5.963303
  0
LINE
  8
CYAN
 10
5.909086
 20
6.000708
 11
5.872166
 21
6.087664
  0
LINE
  8
CYAN
 10
6.099773
 20
6.134304
 11
6.069518
 21
6.234715
  0
LINE
  8
CYAN
 10
6.257539
 20
6.239089
 11
6.239207
 21
6.345503
  0
LINE
  8
CYAN
 10
6.426253
 20
6.46789
 11
6.46912
 21
6.330275
  0
LINE
  8
CYAN
 10
6.608851
 20
6.595569
 11
6.69337
 21
6.273148
  0
LINE
  8
CYAN
 10
7.118782
 20
5.546809
 11
7.118257
 21
5.54886
  0
LINE
  8
CYAN
 10
7.428331
 20
6.146291
 11
7.354857
 21
6.498718
  0
LINE
  8
CYAN
 10
7.854938
 20
6.068584
 11
7.088964
 21
6.727421
  0
LINE
  8
CYAN
 10
5.011661
 20
5.389908
 11
6.257539
 21
6.239089
  0
LINE
  8
GREEN
 10
6.812051
 20
6.743119
 11
4.968794
 21
5.481651
  0
LINE
  8
CYAN
 10
6.794326
 20
6.792468
 11
6.812051
 21
6.743119
  0
LINE
  8
GREEN
 10
4.925928
 20
5.527523
 11
6.794326
 21
6.792468
  0
LINE
  8
CYAN
 10
5.422425
 20
6.203767
 11
4.807362
 21
6.327385
  0
LINE
  8
CYAN
 10
5.333159
 20
6.261468
 11
5.350615
 21
6.457685
  0
LINE
  8
CYAN
 10
5.225993
 20
6.353211
 11
5.268859
 21
6.261468
  0
LINE
  8
CYAN
 10
5.225993
 20
6.261468
 11
5.225993
 21
6.353211
  0
LINE
  8
CYAN
 10
5.118827
 20
6.330275
 11
5.125821
 21
6.494436
  0
LINE
  8
CYAN
 10
5.032156
 20
6.400888
 11
5.07596
 21
6.307339
  0
LINE
  8
CYAN
 10
5.011661
 20
6.307339
 11
5.032156
 21
6.400888
  0
LINE
  8
CYAN
 10
4.968794
 20
6.513761
 11
5.005322
 21
6.424507
  0
LINE
  8
CYAN
 10
4.925928
 20
6.376147
 11
4.968794
 21
6.513761
  0
LINE
  8
CYAN
 10
4.93537
 20
6.300657
 11
4.968794
 21
6.192661
  0
LINE
  8
CYAN
 10
4.904148
 20
6.217132
 11
4.93537
 21
6.300657
  0
LINE
  8
CYAN
 10
5.122699
 20
6.267247
 11
5.161693
 21
6.123853
  0
LINE
  8
CYAN
 10
5.092491
 20
6.149851
 11
5.122699
 21
6.267247
  0
LINE
  8
CYAN
 10
4.925928
 20
5.963303
 11
4.944203
 21
6.103973
  0
LINE
  8
YELLOW
 10
4.775895
 20
6.376147
 11
5.038401
 21
5.94985
  0
LINE
  8
YELLOW
 10
4.949195
 20
6.516335
 11
4.775895
 21
6.376147
  0
LINE
  8
CYAN
 10
5.118827
 20
6.490826
 11
4.866683
 21
6.233837
  0
LINE
  8
CYAN
 10
4.944203
 20
6.103973
 11
5.347493
 21
6.464367
  0
LINE
  8
CYAN
 10
5.73464
 20
6.410911
 11
4.799229
 21
6.537019
  0
LINE
  8
CYAN
 10
4.826095
 20
6.628077
 11
5.880981
 21
6.508489
  0
LINE
  8
GREEN
 10
4.82129
 20
5.802163
 11
6.057624
 21
6.626401
  0
LINE
  8
YELLOW
 10
4.478636
 20
6.39865
 11
4.647264
 21
6.581239
  0
LINE
  8
YELLOW
 10
4.682742
 20
6.628221
 11
4.474823
 21
6.495488
  0
LINE
  8
GREEN
 10
4.861628
 20
6.743119
 11
4.682742
 21
6.628221
  0
LINE
  8
GREEN
 10
6.057624
 20
6.626401
 11
4.861628
 21
6.743119
  0
LINE
  8
GREEN
 10
6.190488
 20
6.720183
 11
6.057624
 21
6.626401
  0
LINE
  8
CYAN
 10
7.133768
 20
7.843316
 11
7.249542
 21
7.91495
  0
LINE
  8
CYAN
 10
9.555503
 20
7.247706
 11
9.898435
 21
7.431193
  0
LINE
  8
CYAN
 10
9.717958
 20
7.028429
 11
9.555503
 21
7.247706
  0
LINE
  8
CYAN
 10
8.79951
 20
6.958616
 11
8.742305
 21
7.015027
  0
LINE
  8
CYAN
 10
8.033745
 20
7.133028
 11
8.521765
 21
7.478645
  0
LINE
  8
MAGENTA
 10
8.97675
 20
7.177148
 11
8.46349
 21
6.824151
  0
LINE
  8
CYAN
 10
9.04119
 20
7.106409
 11
8.97675
 21
7.177148
  0
LINE
  8
MAGENTA
 10
8.517059
 20
6.786919
 11
9.082511
 21
7.132088
  0
LINE
  8
MAGENTA
 10
8.749874
 20
6.508547
 11
9.340783
 21
6.857179
  0
LINE
  8
RED
 10
7.219282
 20
5.917431
 11
7.151691
 21
5.93875
  0
LINE
  8
RED
 10
7.186412
 20
5.927603
 11
7.277327
 21
6.025331
  0
LINE
  8
RED
 10
7.219282
 20
6.03211
 11
7.151691
 21
5.93875
  0
LINE
  8
RED
 10
7.414202
 20
6.136211
 11
7.219282
 21
6.03211
  0
LINE
  8
RED
 10
7.498629
 20
6.077349
 11
7.414202
 21
6.136211
  0
LINE
  8
RED
 10
7.305015
 20
5.963303
 11
7.498629
 21
6.077349
  0
LINE
  8
RED
 10
7.219282
 20
5.917431
 11
7.305015
 21
5.963303
  0
LINE
  8
RED
 10
7.134056
 20
5.825475
 11
7.219282
 21
5.917431
  0
LINE
  8
RED
 10
5.757557
 20
4.971107
 11
5.858974
 21
5.043457
  0
LINE
  8
RED
 10
5.783257
 20
4.908257
 11
5.397459
 21
4.633028
  0
LINE
  8
RED
 10
5.890423
 20
5.0
 11
5.783257
 21
4.908257
  0
LINE
  8
RED
 10
5.997589
 20
5.022936
 11
5.890423
 21
5.0
  0
LINE
  8
RED
 10
7.134056
 20
5.825475
 11
5.997589
 21
5.022936
  0
LINE
  8
RED
 10
5.847556
 20
5.114679
 11
7.06925
 21
5.894495
  0
LINE
  8
RED
 10
5.80469
 20
5.045872
 11
5.847556
 21
5.114679
  0
LINE
  8
RED
 10
5.676091
 20
4.977064
 11
5.80469
 21
5.045872
  0
LINE
  8
RED
 10
5.354592
 20
4.747706
 11
5.676091
 21
4.977064
  0
LINE
  8
CYAN
 10
5.460001
 20
5.089261
 11
5.15087
 21
5.18059
  0
LINE
  8
CYAN
 10
5.611791
 20
5.229358
 11
5.322337
 21
5.287895
  0
LINE
  8
CYAN
 10
5.825768
 20
5.347789
 11
5.525891
 21
5.418971
  0
LINE
  8
CYAN
 10
5.994205
 20
5.481986
 11
5.730262
 21
5.548003
  0
LINE
  8
CYAN
 10
6.174937
 20
5.608947
 11
5.90948
 21
5.662522
  0
LINE
  8
CYAN
 10
6.362432
 20
5.7142
 11
6.057255
 21
5.757953
  0
LINE
  8
CYAN
 10
6.511812
 20
5.828005
 11
6.248342
 21
5.879331
  0
LINE
  8
CYAN
 10
5.268859
 20
5.252294
 11
5.188679
 21
5.386166
  0
LINE
  8
CYAN
 10
5.490738
 20
5.064264
 11
5.268859
 21
5.252294
  0
LINE
  8
CYAN
 10
5.665305
 20
4.969515
 11
5.490738
 21
5.064264
  0
LINE
  8
CYAN
 10
5.654657
 20
5.183486
 11
5.827491
 21
5.084157
  0
LINE
  8
CYAN
 10
5.467645
 20
5.381792
 11
5.654657
 21
5.183486
  0
LINE
  8
CYAN
 10
5.397459
 20
5.527523
 11
5.467645
 21
5.381792
  0
LINE
  8
CYAN
 10
5.669972
 20
5.510824
 11
5.585158
 21
5.648604
  0
LINE
  8
CYAN
 10
5.852786
 20
5.31981
 11
5.669972
 21
5.510824
  0
LINE
  8
CYAN
 10
6.023899
 20
5.227459
 11
5.852786
 21
5.31981
  0
LINE
  8
CYAN
 10
6.019022
 20
5.458716
 11
6.197988
 21
5.338917
  0
LINE
  8
CYAN
 10
5.84471
 20
5.62236
 11
6.019022
 21
5.458716
  0
LINE
  8
CYAN
 10
5.757852
 20
5.763421
 11
5.84471
 21
5.62236
  0
LINE
  8
CYAN
 10
6.034778
 20
5.74446
 11
5.959335
 21
5.895923
  0
LINE
  8
CYAN
 10
6.211921
 20
5.573394
 11
6.034778
 21
5.74446
  0
LINE
  8
CYAN
 10
6.383387
 20
5.458716
 11
6.211921
 21
5.573394
  0
LINE
  8
CYAN
 10
6.209363
 20
5.854976
 11
6.385493
 21
5.693817
  0
LINE
  8
CYAN
 10
6.141047
 20
6.017111
 11
6.209363
 21
5.854976
  0
LINE
  8
CYAN
 10
6.532373
 20
5.799906
 11
6.400661
 21
5.977225
  0
LINE
  8
CYAN
 10
6.768462
 20
5.703603
 11
6.532373
 21
5.799906
  0
LINE
  8
CYAN
 10
8.331907
 20
5.029655
 11
8.200178
 21
5.277379
  0
LINE
  8
CYAN
 10
8.633875
 20
5.206422
 11
8.548142
 21
5.458716
  0
LINE
  8
CYAN
 10
6.297654
 20
3.990826
 11
6.521653
 21
3.867558
  0
LINE
  8
CYAN
 10
6.046218
 20
4.530053
 11
6.297654
 21
3.990826
  0
LINE
  8
CYAN
 10
6.490553
 20
4.12844
 11
6.791847
 21
3.985585
  0
LINE
  8
CYAN
 10
6.233698
 20
4.657433
 11
6.490553
 21
4.12844
  0
LINE
  8
CYAN
 10
6.683452
 20
4.266055
 11
6.426253
 21
4.793578
  0
LINE
  8
CYAN
 10
7.041018
 20
4.09481
 11
6.683452
 21
4.266055
  0
LINE
  8
CYAN
 10
6.872903
 20
4.396787
 11
7.312633
 21
4.21135
  0
LINE
  8
CYAN
 10
6.619152
 20
4.931193
 11
6.872903
 21
4.396787
  0
LINE
  8
CYAN
 10
7.563923
 20
7.073702
 11
8.100948
 21
9.411115
  0
LINE
  8
CYAN
 10
8.339786
 20
9.533485
 11
7.992385
 21
9.35845
  0
LINE
  8
YELLOW
 10
7.240716
 20
7.110092
 11
8.080683
 21
9.620228
  0
LINE
  8
YELLOW
 10
7.326448
 20
6.926606
 11
7.240716
 21
7.110092
  0
LINE
  8
CYAN
 10
8.033745
 20
9.380734
 11
7.371405
 21
6.95443
  0
LINE
  8
CYAN
 10
8.160295
 20
9.443644
 11
7.776706
 21
7.210012
  0
LINE
  8
CYAN
 10
7.930142
 20
7.307598
 11
8.244251
 21
9.485466
  0
LINE
  8
CYAN
 10
8.362143
 20
9.771065
 11
8.140833
 21
7.440442
  0
LINE
  8
GREEN
 10
8.633875
 20
8.623853
 11
8.247146
 21
8.560724
  0
LINE
  8
GREEN
 10
8.651896
 20
9.685041
 11
8.339569
 21
9.533679
  0
LINE
  8
CYAN
 10
7.326448
 20
6.926606
 11
8.419543
 21
7.614679
  0
LINE
  8
YELLOW
 10
7.026383
 20
6.834862
 11
7.326448
 21
6.926606
  0
LINE
  8
YELLOW
 10
6.854918
 20
6.880734
 11
7.026383
 21
6.834862
  0
LINE
  8
YELLOW
 10
7.60508
 20
8.853211
 11
6.854918
 21
6.880734
  0
LINE
  8
YELLOW
 10
7.797979
 20
9.334862
 11
7.60508
 21
8.853211
  0
LINE
  8
YELLOW
 10
8.033745
 20
9.610092
 11
7.797979
 21
9.334862
  0
LINE
  8
CYAN
 10
8.655068
 20
9.930589
 11
8.08213
 21
9.618679
  0
LINE
  8
GREEN
 10
8.633875
 20
8.073394
 11
8.651896
 21
9.685041
  0
LINE
  8
CYAN
 10
8.419543
 20
7.614679
 11
8.633875
 21
8.073394
  0
LINE
  8
CYAN
 10
8.232758
 20
7.390254
 11
8.422235
 21
7.255749
  0
LINE
  8
CYAN
 10
8.133329
 20
7.326013
 11
8.287162
 21
7.167418
  0
LINE
  8
CYAN
 10
9.570304
 20
6.862398
 11
9.360016
 21
7.01595
  0
LINE
  8
CYAN
 10
9.419089
 20
6.773384
 11
9.328419
 21
6.848359
  0
LINE
  8
CYAN
 10
9.109981
 20
6.720572
 11
9.185545
 21
6.635195
  0
LINE
  8
CYAN
 10
9.059157
 20
6.56169
 11
8.985446
 21
6.64569
  0
LINE
  8
CYAN
 10
8.591008
 20
6.376147
 11
8.099061
 21
6.182745
  0
LINE
  8
CYAN
 10
8.096882
 20
6.225892
 11
8.592578
 21
6.419874
  0
LINE
  8
CYAN
 10
8.584288
 20
6.511122
 11
8.093613
 21
6.263209
  0
LINE
  8
CYAN
 10
8.035856
 20
6.4358
 11
8.515599
 21
6.713894
  0
LINE
  8
CYAN
 10
8.374667
 20
6.893854
 11
7.880021
 21
6.614221
  0
LINE
  8
CYAN
 10
7.712246
 20
6.697248
 11
8.102278
 21
7.045933
  0
LINE
  8
CYAN
 10
7.959039
 20
7.068766
 11
7.581627
 21
6.715819
  0
LINE
  8
CYAN
 10
7.926267
 20
5.912456
 11
9.641236
 21
6.90367
  0
LINE
  8
CYAN
 10
5.590358
 20
4.220183
 11
7.966255
 21
5.846535
  0
LINE
  8
GREEN
 10
12.34861
 20
5.646073
 11
12.132461
 21
5.515966
  0
LINE
  8
GREEN
 10
12.213517
 20
5.50151
 11
12.34861
 21
5.646073
  0
LINE
  8
GREEN
 10
11.819046
 20
5.776181
 11
11.559667
 21
5.622943
  0
LINE
  8
GREEN
 10
11.638021
 20
5.611378
 11
11.819046
 21
5.776181
  0
LINE
  8
GREEN
 10
10.181719
 20
6.192524
 11
9.806161
 21
5.949657
  0
LINE
  8
GREEN
 10
9.89262
 20
5.932309
 11
10.181719
 21
6.192524
  0
LINE
  8
GREEN
 10
10.370849
 20
6.143372
 11
9.987185
 21
5.917853
  0
LINE
  8
GREEN
 10
10.116875
 20
5.891831
 11
10.370849
 21
6.143372
  0
LINE
  8
GREEN
 10
10.600507
 20
6.085547
 11
10.233055
 21
5.868701
  0
LINE
  8
GREEN
 10
10.31411
 20
5.851354
 11
10.600507
 21
6.085547
  0
LINE
  8
GREEN
 10
10.786936
 20
6.039286
 11
10.454607
 21
5.825332
  0
LINE
  8
GREEN
 10
10.532961
 20
5.813767
 11
10.786936
 21
6.039286
  0
LINE
  8
GREEN
 10
11.027401
 20
5.97857
 11
10.651843
 21
5.790637
  0
LINE
  8
GREEN
 10
10.773426
 20
5.770398
 11
11.027401
 21
5.97857
  0
LINE
  8
GREEN
 10
11.205724
 20
5.9352
 11
10.889606
 21
5.747268
  0
LINE
  8
GREEN
 10
10.973364
 20
5.732812
 11
11.205724
 21
5.9352
  0
LINE
  8
GREEN
 10
11.440785
 20
5.874484
 11
11.098695
 21
5.711009
  0
LINE
  8
GREEN
 10
11.265165
 20
5.680769
 11
11.440785
 21
5.874484
  0
LINE
  8
GREEN
 10
11.986561
 20
5.738594
 11
11.765009
 21
5.585357
  0
LINE
  8
GREEN
 10
11.827425
 20
5.573394
 11
11.986561
 21
5.738594
  0
LINE
  8
GREEN
 10
12.499914
 20
5.608487
 11
12.335101
 21
5.481271
  0
LINE
  8
GREEN
 10
12.416157
 20
5.466815
 11
12.499914
 21
5.608487
  0
LINE
  8
GREEN
 10
12.710659
 20
5.553553
 11
12.532336
 21
5.443684
  0
LINE
  8
GREEN
 10
12.613718
 20
5.429586
 11
12.710659
 21
5.553553
  0
LINE
  8
CYAN
 10
12.579076
 20
5.34374
 11
12.613718
 21
5.429586
  0
LINE
  8
GREEN
 10
12.918702
 20
5.50151
 11
12.637709
 21
5.316469
  0
LINE
  8
CYAN
 10
10.106067
 20
5.732812
 11
8.572072
 21
4.701977
  0
LINE
  8
CYAN
 10
9.309019
 20
4.836518
 11
10.487029
 21
5.672095
  0
LINE
  8
CYAN
 10
10.916625
 20
5.605596
 11
9.987185
 21
4.952168
  0
LINE
  8
CYAN
 10
10.746408
 20
5.11408
 11
11.292183
 21
5.544879
  0
LINE
  8
CYAN
 10
11.870381
 20
5.452358
 11
11.575878
 21
5.226839
  0
LINE
  8
CYAN
 10
8.569575
 20
4.701835
 11
7.647436
 21
4.933279
  0
LINE
  8
CYAN
 10
9.211752
 20
4.822061
 11
7.94464
 21
5.122818
  0
LINE
  8
CYAN
 10
9.984168
 20
4.954128
 11
8.200178
 21
5.277379
  0
LINE
  8
CYAN
 10
10.584298
 20
5.091743
 11
8.569575
 21
5.458716
  0
LINE
  8
GREEN
 10
9.838112
 20
6.605395
 11
10.477132
 21
6.559633
  0
LINE
  8
CYAN
 10
9.984168
 20
6.169725
 11
9.718415
 21
6.597573
  0
LINE
  8
CYAN
 10
9.877002
 20
6.123853
 11
9.602373
 21
6.532062
  0
LINE
  8
CYAN
 10
9.657559
 20
5.975678
 11
9.448337
 21
6.444954
  0
LINE
  8
CYAN
 10
9.729831
 20
6.033929
 11
9.280337
 21
6.691058
  0
LINE
  8
CYAN
 10
9.516849
 20
5.926185
 11
9.16906
 21
6.624904
  0
LINE
  8
CYAN
 10
9.362385
 20
5.848599
 11
9.151908
 21
6.277067
  0
LINE
  8
CYAN
 10
9.215276
 20
5.774386
 11
8.881952
 21
6.462689
  0
LINE
  8
CYAN
 10
9.069219
 20
5.700173
 11
8.8317
 21
6.095379
  0
LINE
  8
CYAN
 10
8.542689
 20
6.267379
 11
8.905103
 21
5.618495
  0
LINE
  8
CYAN
 10
8.739001
 20
5.539525
 11
8.390235
 21
6.175469
  0
LINE
  8
CYAN
 10
8.550243
 20
5.452532
 11
8.199131
 21
6.067473
  0
LINE
  8
CYAN
 10
8.061708
 20
5.658471
 11
9.807959
 21
6.649395
  0
LINE
  8
CYAN
 10
7.966255
 20
5.846535
 11
8.244198
 21
5.304731
  0
LINE
  8
CYAN
 10
8.057467
 20
5.191524
 11
7.800339
 21
5.729311
  0
LINE
  8
CYAN
 10
7.608458
 20
5.600636
 11
7.86586
 21
5.074264
  0
LINE
  8
CYAN
 10
7.647436
 20
4.933279
 11
7.420369
 21
5.468001
  0
LINE
  8
CYAN
 10
7.452301
 20
4.801565
 11
7.227255
 21
5.33781
  0
LINE
  8
CYAN
 10
8.148781
 20
4.547776
 11
7.37725
 21
4.746952
  0
LINE
  8
CYAN
 10
7.010998
 20
5.193493
 11
7.262149
 21
4.678899
  0
LINE
  8
CYAN
 10
7.089051
 20
4.547776
 11
6.818866
 21
5.058567
  0
LINE
  8
CYAN
 10
7.623419
 20
4.345387
 11
7.089051
 21
4.547776
  0
LINE
  8
CYAN
 10
6.104374
 20
3.863509
 11
6.266332
 21
3.756586
  0
LINE
  8
CYAN
 10
5.890915
 20
4.425921
 11
6.104374
 21
3.863509
  0
LINE
  8
CYAN
 10
5.890423
 20
3.715596
 11
5.654657
 21
4.266055
  0
LINE
  8
CYAN
 10
6.006345
 20
3.643585
 11
5.890423
 21
3.715596
  0
LINE
  8
CYAN
 10
8.955373
 20
5.642202
 11
9.362604
 21
5.848624
  0
LINE
  8
CYAN
 10
8.26951
 20
5.321101
 11
8.955373
 21
5.642202
  0
LINE
  8
CYAN
 10
7.66938
 20
4.954128
 11
8.26951
 21
5.321101
  0
LINE
  8
CYAN
 10
5.890423
 20
3.715596
 11
7.66938
 21
4.954128
  0
LINE
  8
CYAN
 10
7.755113
 20
4.40367
 11
5.957993
 21
3.622569
  0
LINE
  8
CYAN
 10
8.633875
 20
4.724771
 11
7.755113
 21
4.40367
  0
LINE
  8
CYAN
 10
10.412832
 20
5.022936
 11
8.633875
 21
4.724771
  0
LINE
  8
CYAN
 10
10.584298
 20
5.091743
 11
10.412832
 21
5.022936
  0
LINE
  8
CYAN
 10
11.934591
 20
5.275229
 11
10.584298
 21
5.091743
  0
LINE
  8
CYAN
 10
12.137865
 20
5.41188
 11
11.934591
 21
5.275229
  0
LINE
  8
CYAN
 10
12.577587
 20
5.344037
 11
9.362604
 21
5.848624
  0
LINE
  8
YELLOW
 10
12.74146
 20
5.265711
 11
12.577587
 21
5.344037
  0
LINE
  8
YELLOW
 10
6.131393
 20
3.384843
 11
6.358523
 21
3.197461
  0
LINE
  8
YELLOW
 10
6.290853
 20
3.482196
 11
6.571863
 21
3.29314
  0
LINE
  8
YELLOW
 10
6.46912
 20
3.577982
 11
6.785843
 21
3.391268
  0
LINE
  8
YELLOW
 10
6.656754
 20
3.696457
 11
7.020004
 21
3.500494
  0
LINE
  8
YELLOW
 10
6.851888
 20
3.812108
 11
7.269175
 21
3.606507
  0
LINE
  8
YELLOW
 10
7.086049
 20
3.950247
 11
7.512343
 21
3.722158
  0
LINE
  8
YELLOW
 10
7.455048
 20
4.174312
 11
7.776524
 21
3.837808
  0
LINE
  8
YELLOW
 10
7.736639
 20
4.280336
 11
8.013899
 21
3.939867
  0
LINE
  8
YELLOW
 10
7.970899
 20
4.368539
 11
8.233914
 21
4.038539
  0
LINE
  8
YELLOW
 10
8.274043
 20
4.482679
 11
8.53531
 21
4.142886
  0
LINE
  8
YELLOW
 10
8.612442
 20
4.610092
 11
8.891073
 21
4.266055
  0
LINE
  8
YELLOW
 10
8.890291
 20
4.647364
 11
9.031388
 21
4.290774
  0
LINE
  8
YELLOW
 10
9.206348
 20
4.689063
 11
9.395478
 21
4.353675
  0
LINE
  8
YELLOW
 10
9.562994
 20
4.741106
 11
9.758921
 21
4.41784
  0
LINE
  8
YELLOW
 10
9.941301
 20
4.793578
 11
10.093442
 21
4.476347
  0
LINE
  8
YELLOW
 10
10.235756
 20
4.830735
 11
10.397868
 21
4.530043
  0
LINE
  8
YELLOW
 10
10.576412
 20
4.882528
 11
10.765321
 21
4.59076
  0
LINE
  8
YELLOW
 10
10.948663
 20
4.931193
 11
11.120157
 21
4.655917
  0
LINE
  8
YELLOW
 10
11.311096
 20
4.981081
 11
11.443487
 21
4.712193
  0
LINE
  8
YELLOW
 10
11.745562
 20
5.044709
 11
11.840445
 21
4.781894
  0
LINE
  8
YELLOW
 10
12.084623
 20
5.091743
 11
12.170329
 21
4.83959
  0
LINE
  8
YELLOW
 10
12.234656
 20
5.16055
 11
12.437771
 21
5.02445
  0
LINE
  8
YELLOW
 10
12.74146
 20
5.265711
 11
12.601924
 21
5.141579
  0
LINE
  8
YELLOW
 10
12.427555
 20
5.252294
 11
12.601924
 21
5.141579
  0
LINE
  8
YELLOW
 10
12.084623
 20
5.091743
 11
12.427555
 21
5.252294
  0
LINE
  8
YELLOW
 10
8.612442
 20
4.610092
 11
12.084623
 21
5.091743
  0
LINE
  8
YELLOW
 10
7.455048
 20
4.174312
 11
8.612442
 21
4.610092
  0
LINE
  8
YELLOW
 10
6.104755
 20
3.37156
 11
7.455048
 21
4.174312
  0
LINE
  8
YELLOW
 10
8.233914
 20
4.038539
 11
5.721281
 21
2.91167
  0
LINE
  8
YELLOW
 10
8.891073
 20
4.266055
 11
8.233914
 21
4.038539
  0
LINE
  8
YELLOW
 10
12.170329
 20
4.83959
 11
8.891073
 21
4.266055
  0
LINE
  8
YELLOW
 10
12.601924
 20
5.141579
 11
12.170329
 21
4.83959
  0
LINE
  8
GREEN
 10
12.984818
 20
5.481651
 11
12.74146
 21
5.265711
  0
LINE
  8
CYAN
 10
8.098211
 20
6.1433
 11
8.591008
 21
6.330275
  0
LINE
  8
CYAN
 10
7.990849
 20
6.118024
 11
8.098211
 21
6.1433
  0
LINE
  8
CYAN
 10
7.455048
 20
6.697248
 11
7.455048
 21
6.651376
  0
LINE
  8
CYAN
 10
7.905145
 20
7.178899
 11
7.455048
 21
6.697248
  0
LINE
  8
CYAN
 10
8.571243
 20
7.604044
 11
7.905145
 21
7.178899
  0
LINE
  8
CYAN
 10
9.491204
 20
7.614679
 11
9.405471
 21
7.66055
  0
LINE
  8
CYAN
 10
9.748402
 20
7.752294
 11
9.491204
 21
7.614679
  0
LINE
  8
CYAN
 10
9.834135
 20
7.683486
 11
9.748402
 21
7.752294
  0
LINE
  8
CYAN
 10
9.919868
 20
7.729358
 11
9.834135
 21
7.683486
  0
LINE
  8
CYAN
 10
9.984168
 20
7.637615
 11
9.919868
 21
7.729358
  0
LINE
  8
CYAN
 10
9.919868
 20
7.591743
 11
9.984168
 21
7.637615
  0
LINE
  8
CYAN
 10
9.877002
 20
7.293578
 11
9.919868
 21
7.591743
  0
LINE
  8
CYAN
 10
9.641236
 20
6.90367
 11
9.877002
 21
7.293578
  0
LINE
  8
CYAN
 10
10.092438
 20
6.215846
 11
9.641236
 21
6.90367
  0
LINE
  8
GREEN
 10
10.477132
 20
6.559633
 11
10.092438
 21
6.215846
  0
LINE
  8
GREEN
 10
10.160164
 20
6.19837
 11
10.477132
 21
6.559633
  0
LINE
  8
CYAN
 10
11.438922
 20
5.207874
 11
8.955373
 21
5.642202
  0
LINE
  8
CYAN
 10
11.268172
 20
5.184672
 11
11.245991
 21
5.241615
  0
LINE
  8
CYAN
 10
9.019673
 20
5.389908
 11
8.93394
 21
5.642202
  0
LINE
  8
CYAN
 10
5.959663
 20
5.014819
 11
6.073001
 21
4.967922
  0
LINE
  8
CYAN
 10
6.842203
 20
5.749569
 11
6.702324
 21
6.209104
  0
LINE
  8
CYAN
 10
6.622207
 20
5.763262
 11
6.481388
 21
6.245477
  0
LINE
  8
CYAN
 10
7.035343
 20
5.872852
 11
6.812931
 21
6.741948
  0
LINE
  8
CYAN
 10
7.110011
 20
5.581081
 11
7.060721
 21
5.773688
  0
LINE
  8
CYAN
 10
7.310947
 20
5.691975
 11
7.249421
 21
5.933557
  0
LINE
  8
CYAN
 10
7.223719
 20
6.034479
 11
7.0633
 21
6.664367
  0
LINE
  8
CYAN
 10
7.440791
 20
6.424805
 11
6.540871
 21
6.554649
  0
ENDSEC
  0
EOF
